Feed the Hungry Beast of your Guitar Curiosity with Guitar Lessons Pro and watch your Guitar Playing Explode with Creative Musical Madness !!!
Home   Lessons   Newsletter   Articles   Bio   Affiliates   Links   Contact   Advertise with Us
guitar, Guitar, guitar chords, Guitar Chords, guitar scales, Guitar Scales, scales, learn guitar,
guitar chords, guitar chords, guitar chords, guitar chords, guitar chords, guitar chords, guitar chords, 
guitar chords, guitar chords, guitar chords, guitar chords, guitar chords, guitar chords, guitar chords,
guitar lesson, guitar lesson, guitar lesson, guitar lesson, guitar lesson, guitar lesson, guitar lesson,
guitar lesson, guitar lesson, guitar lesson, guitar lesson, guitar lesson, guitar lesson, guitar lesson,
guitar lessons, guitar lessons, guitar lessons, guitar lessons, guitar lessons, guitar lessons, guitar lessons,
guitar lessons, guitar lessons, guitar lessons, guitar lessons, guitar lessons, guitar lessons, guitar lessons,
learn guitar chords, learn guitar chords beginner, learn guitar scales, guitar lessons,
guitar lessons beginner, guitar lessons advanced, lessons guitar, learn guitar beginner,
learn guitar advanced, guitar learn, guitar learn chords, guitar play, play guitar, learn to play guitar,
guitar teacher, guitar teacher pro, Guitar Teacher Pro,
guitar solo, guitar soloing, solo, soloing, tampa, florida, Tampa, Florida
Welcome to the Guitar Lessons Pro Articles. Here you will find articles on a variety of subjects ranging from CD and concert reviews to guitar tips to bios on famous artists.


Little Jazz Link Monster

By Carlos Lichman


Hi people!!!!

A new exercise called "Little Jazz Link Monster". Well, I use some jazz links and a chromatic scale! You will use sweeping picking and alternate picking! You can see and listen to this exercise in my first instructional guitar video called "Improving Your Musical Fundaments" (coming soon!!)

See you! Keep On Touch!

Carlos Lichman


Email:
Site: http://www.lichman.hpg.com.br

"Little Jazz Link Monster"

                                               
E||-------------10-11-12--------------------0-|
B||----10-14-14----------14-11-10-10------1---|
G||--9--------------------------------2-4-----|
D||-------------------------------------------|
A||-------------------------------------------|
E||-------------------------------------------|


                                                                      
--5-7-8-12-13-8-7-5-----4-2---------|--------------------------------|
--------------------5-5-----5-6-5---|--------4-2-----1-0-------2---2-|
----------------------------------5-|--4-2---------1-------1-0---3---|
------------------------------------|------------3-------3-----------|
------------------------------------|--------------------------------|
------------------------------------|--------------------------------|


                          
------------------------||
--5-7-5-5-4-3-----------||
------------------------||
------------------------||
------------------------||
------------------------||




Previous Articles...

Philip Booth reviews the best music books of 2002
Muddy Waters - A Biographical Sketch, by L.Morgan.H
Review of Joe Satriani's "Strange Beautiful Days" (Epic), by Philip Booth
Review of Brian Bromberg's "Wood" (A440 Music Group), by Philip Booth
Review of Bad Brains "I and I Survived" (Dub), by Philip Booth
Carlos Lichman Lesson 1 - Alternate Picking
Carlos Lichman Lesson 2 - Music Theory
Carlos Lichman Lesson 3 - More Music Theory

[Home] [Lessons] [Newsletter] [Articles] [Bio] [Affiliates] [Guitar Links] [Contact] [Advertise with Us]
Copyright 2002 by Domenick Ginex. All rights reserved.
Site owned and operated by Dexin Corporation