Feed the Hungry Beast of your Guitar Curiosity with Guitar Lessons Pro and watch your Guitar Playing Explode with Creative Musical Madness !!!
Home   Lessons   Newsletter   Articles   Bio   Affiliates   Links   Contact   Advertise with Us
guitar, Guitar, guitar chords, Guitar Chords, guitar scales, Guitar Scales, scales, learn guitar,
guitar chords, guitar chords, guitar chords, guitar chords, guitar chords, guitar chords, guitar chords, 
guitar chords, guitar chords, guitar chords, guitar chords, guitar chords, guitar chords, guitar chords,
guitar lesson, guitar lesson, guitar lesson, guitar lesson, guitar lesson, guitar lesson, guitar lesson,
guitar lesson, guitar lesson, guitar lesson, guitar lesson, guitar lesson, guitar lesson, guitar lesson,
guitar lessons, guitar lessons, guitar lessons, guitar lessons, guitar lessons, guitar lessons, guitar lessons,
guitar lessons, guitar lessons, guitar lessons, guitar lessons, guitar lessons, guitar lessons, guitar lessons,
learn guitar chords, learn guitar chords beginner, learn guitar scales, guitar lessons,
guitar lessons beginner, guitar lessons advanced, lessons guitar, learn guitar beginner,
learn guitar advanced, guitar learn, guitar learn chords, guitar play, play guitar, learn to play guitar,
guitar teacher, guitar teacher pro, Guitar Teacher Pro,
guitar solo, guitar soloing, solo, soloing, tampa, florida, Tampa, Florida
Welcome to the Guitar Lessons Pro Articles. Here you will find articles on a variety of subjects ranging from CD and concert reviews to guitar tips to bios on famous artists.

Over the next several weeks we are going to have the pleasure of learning from Brazilian guitarist and teacher Carlos Lichman.

Carlos Lichman is a guitar player from Porto Alegre, Brazil. He has been playing since 1996.

He has played in many rock, progressive and heavy metal bands in night clubs all around Rio Grande do Sul state.

He recorded the "Wake up the Dragons" album with Neverland (heavy metal). This album was praised by many Brazilian magazines.

Playing with many musicians from his city, Carlos arranged the songs for his first 2 song solo demo called "Planet Rock", recorded in December 2002.

The demo style ranges from speed metal to hard rock, with influences ranging from Mr. Big to captivating blues riffs and licks.

Subsequent to the release of the "Planet Rock" demo, Carlos began arranging new songs for his first album. He is also producing his first instructional guitar video.

Carlos teaches guitar lessons, workshops, plays gigs, writes columns for the Guitar-Heroes web site (France) and The Shred Zone (USA).

Contact Info...
Carlos Lichman
Rua Tenente Ary Tarrag˘, 1990/405- bloco 'C'
Cep: 91225-001
Phone: 0(xx51) 3344 1745
Email:
Site: http://www.lichman.hpg.com.br

Without further delay, let's get into the lessons!


Carlos Lichman - Lesson 1, Alternate Picking Patterns



Hi! Everybody around the world intends to have a fast picking style,
trying to play many notes very fast, well when I was a little boy I wanted to be Impellitteri.
Well, here you can see and study some alternate picking lessons.
There are 20 exercices here in this lesson. 
You can put them in your exercices, doing them day by day.
you need to begin slow(80 bpm)
I hope you enjoy!
Don't forget you need to study them with distortion guitar and clean guitar!
BE GOOD!!

Alternate Picking Lesson

u upstroke
d downstroke

1.
  d u d u etc
|-4-3-2-1-5-4-3-2-6-5-4-3-5-4-3-2-|-6-5-4-3-7-6-5-4-8-7-6-5-7-6-5-4-|-8-7-6-
|---------------------------------|---------------------------------|-------
|---------------------------------|---------------------------------|-------
|---------------------------------|---------------------------------|-------
|---------------------------------|---------------------------------|-------
|---------------------------------|---------------------------------|-------
 

-5-9-8-7-6-10-9-8-7-9-8-7-6-|-10-9-8-7-11-10-9-8-12-11-10-9-11-10-9-8-||
----------------------------|-----------------------------------------||
----------------------------|-----------------------------------------||
----------------------------|-----------------------------------------||
----------------------------|-----------------------------------------||
----------------------------|-----------------------------------------||


2.
  d u d u
|-0-1-3-4-1-3-4/6-3-4-6/7-4-6-7/9-|-6-7-9/10-7-9-10/12-9-10-12/13-10-12-13/-
|---------------------------------|-----------------------------------------
|---------------------------------|-----------------------------------------
|---------------------------------|-----------------------------------------
|---------------------------------|-----------------------------------------
|---------------------------------|-----------------------------------------


-15-|-15-13-12\10-13-12-10\9-12-10-9\7-10-9-7\6-|-9-7-6\4-7-6-4\3-6-4-3\1---
----|-------------------------------------------|---------------------------
----|-------------------------------------------|---------------------------
----|-------------------------------------------|---------------------------
----|-------------------------------------------|---------------------------
----|-------------------------------------------|---------------------------


-4-3-1-0-||
---------||
---------||
---------||
---------||
---------||


3.
  d u d u etc
|-4-0-2-0-5-0-2-0-7-0-4-0-9-0-5-0-|-11-0-7-0-12-0-9-0-14-0-11-0-16-0-12-0-||
|---------------------------------|---------------------------------------||
|---------------------------------|---------------------------------------||
|---------------------------------|---------------------------------------||
|---------------------------------|---------------------------------------||
|---------------------------------|---------------------------------------||



4.Here you can see some ideas of melodies!Play slow and fast!  
|----------------------------||  |-------------------------||
|---------------8------------||  |-------5--6--8--6--5-----||
|-----7--9--10-----10--9--7--||  |-5--7-----------------7--||
|-10-------------------------||  |-------------------------||
|----------------------------||  |-------------------------||
|----------------------------||  |-------------------------||


|-------------------------||
|----------6--8--6--------||
|-5--7--9-----------9--7--||
|-------------------------||
|-------------------------||
|-------------------------||



5.
|-------------------------------------------------||
|-------------------------------------------------||
|----------5--7--5-----------------5--7--5--------||
|----5--7-----------7--5-----5--7-----------7--5--||
|-7-----------------------7-----------------------||
|-------------------------------------------------||


6.
|------------------------------------------------------||
|--------------10-------------------------8------------||
|--------7--8------8--7-------------7--8-----8--7------||
|-7--10------------------10--7--10-----------------10--||
|------------------------------------------------------||
|------------------------------------------------------||


7.This a hard one.
|-------------------------------------|------------------------------------|
|-------------------------------------|-------------------------5--8--5----|
|-------------------------------------|-------5--7--5-----5--7-----------7-|
|-------------------------5--7--5-----|-5--7-----------7-------------------|
|-------5--7--5-----5--7-----------7--|------------------------------------|
|-5--8-----------8--------------------|------------------------------------|


|-------5--8--5-----------5----------|------------------------------------|
|-5--8-----------8--5--8-----8--5----|-------5----------------------------|
|----------------------------------7-|-5--7-----7--5-----------5----------|
|------------------------------------|----------------7--5--7-----7--5----|
|------------------------------------|----------------------------------7-|
|------------------------------------|------------------------------------|


-------------------||
-------------------||
-------------------||
-------5-----------||
-5--7-----7--5-----||
----------------8--||


8.
|------------------------------------------------|--------------------------
|------------------------------------------------|-------------5------------
|-------------------------------------5----------|-------5--7-----7--5------
|-------------5-----------------5--7-----7--5----|-5--7-----------------7---
|-------5--7-----7--5-----5--7-----------------7-|--------------------------
|-5--8-----------------8-------------------------|--------------------------


-------------5----------|-------5--8--5----------------------------------|
-------5--8-----8--5----|-5--8-----------8--5-----------5--8--5----------|
-5--7-----------------7-|----------------------7--5--7-----------7--5----|
------------------------|----------------------------------------------7-|
------------------------|------------------------------------------------|
------------------------|------------------------------------------------|


|------------------------------------------------||
|------------------------------------------------||
|-------5--7--5----------------------------------||
|-5--7-----------7--5-----------5--7--5----------||
|----------------------7--5--7-----------7--5----||
|----------------------------------------------8-||



9.Using escales together                                   
|-----------------------------3-5-|-7-5-3---------------------------------||
|-------------------------5-7-----|-------7-5-----------------------------||
|-------------------4-5-7---------|-----------7-5-4-----------------------||
|-------------4-5-7---------------|-----------------7-5-4-----------------||
|-------3-5-7---------------------|-----------------------7-5-3-----------||
|-3-5-7---------------------------|-----------------------------7-5-3-----||



10. This is good!
|-------------------------------5-|-7-5------------------------------------|
|-------------------------5-7-8---|-----8-7--------------------------------|
|-------------------4-5-7---------|---------9-7-5\4------------------------|
|-------------4-5-7---------------|-----------------7-5--------------------|
|-------3-5-7---------------------|---------------------9-7-5\3------------|
|-3-5-7---------------------------|-----------------------------7-5-3------|

11.
|--------------------------------------11|13-11-----------------------------
|-----------------------------10-12-14---|------14-12-10\8------------------
|---------------------8-10-12------------|-----------------10-8-------------
|--------------7-9-11--------------------|----------------------11-9-7\5----
|-------6-8-10---------------------------|----------------------------------
|-5-7-9----------------------------------|----------------------------------


-----------||
-----------||
-----------||
-----------||
-8-6-------||
-----9-7-5-||


12.
|-------------------------------3|5-3-------------------------------||
|-------------------------4-5-7--|----7-5---------------------------||
|-------------------3-5-6--------|--------8-6-5\3-------------------||
|-------------4-5-7--------------|----------------7-5---------------||
|-------4-6-7--------------------|--------------------9-7-6\4-------||
|-5-6-8--------------------------|----------------------------8-6-5-||


13.
|-------------------------------------|------------11-12-14-12-11\9---------
|-------------------------------------|10-11-13/14------------------13-11---
|----------------------------8-9-11/12|-------------------------------------
|------------------7-8-10/11----------|-------------------------------------
|---------6-7-9/10--------------------|-------------------------------------
|-5-6-8/9-----------------------------|-------------------------------------


----------|---------------------------||
-10\8-----|---------------------------||
------11-9|8\6------------------------||
----------|----10-8-7\5---------------||
----------|-------------9-7-6\4-------||
----------|---------------------8-6-5-||

14.
|------------------------------------------|------------16-17-19-17-16\14---
|------------------------------------------|14-15-17/19---------------------
|-------------------------------11-13-14/16|--------------------------------
|--------------------9-11-12/14------------|--------------------------------
|----------7-9-11/12-----------------------|--------------------------------
|-5-7-9/10---------------------------------|--------------------------------


------------------|------------------------------||
-17-15-14\12------|------------------------------||
-------------14-13|11\9--------------------------||
------------------|-----12-11-9\7----------------||
------------------|---------------11-9-7\5-------||
------------------|------------------------9-7-5-||


15.These are to help you in your left hand!
|--------------------------17-20-17---------|-----------------||
|--------------------13-18----------18-13---|-----------------||
|--------------10-14----------------------14|10---------------||
|---------7-10------------------------------|---10-7----------||
|-----3-8-----------------------------------|--------8-3------||
|-1-5---------------------------------------|------------5-1--||

16.
|-------------------------|------------------------------------|------17-20-
|-------------------------|------------------------13-18-13----|13-18-------
|-------------------------|------10-14-10----10-14----------14-|------------
|----------------7-10-7---|-7-10----------10-------------------|------------
|----3-8-3---3-8--------8-|------------------------------------|------------
|1-5-------5--------------|------------------------------------|------------


-17----------17----------|----------------------------------|--------------||
----18-13-18----18-13----|-------13-------------------------|--------------||
----------------------14-|-10-14----14-10---------10--------|--------------||
-------------------------|----------------10-7-10----10-7---|-----7--------||
-------------------------|--------------------------------8-|-3-8---8-3----||
-------------------------|----------------------------------|-----------5-1||


17.To help you in 3 first strings!
|-----------------------------------|---------------------------------------
|-5-4-----8-5-----9-8-----12-9------|-13-12-------16-13-------17-16---------
|-----5-4-----8-5-----9-8------12-9-|-------13-12-------16-13-------17-16---
|-----------------------------------|---------------------------------------
|-----------------------------------|---------------------------------------
|-----------------------------------|---------------------------------------


-------------|-----------------------------------------------|--------------
-20-17-------|-17-16-------16-13-------13-12-------12-9------|-9-8-----8-5--
-------20-17-|-------17-16-------16-13-------13-12------12-9-|-----9-8------
-------------|-----------------------------------------------|--------------
-------------|-----------------------------------------------|--------------
-------------|-----------------------------------------------|--------------


---------------------||
-----5-4-----4-1-----||
-8-5-----5-4-----4-1-||
---------------------||
---------------------||
---------------------||


18.
|-----------------------------------------------|---------------------------
|------9-12-------12-15-------15-18-------12-15-|-------15-18-------18-21---
|-9-10------12-13-------15-16-------12-13-------|-15-16-------18-19---------
|-----------------------------------------------|---------------------------
|-----------------------------------------------|---------------------------
|-----------------------------------------------|---------------------------


-------------------------||
-------15-18-------12-15-||
-15-16-------12-13-------||
-------------------------||
-------------------------||
-------------------------||



19.
|-------1-3-5-------3-5-7|------5-7-8--------7-8-10|--------8-10-12---------
|-1-3-5-------3-5-6------|5-6-8-------6-8-10-------|8-10-12---------10-12-13
|------------------------|-------------------------|------------------------
|------------------------|-------------------------|------------------------
|------------------------|-------------------------|------------------------
|------------------------|-------------------------|------------------------


-10-12-13|---------12-13-15-----||
---------|12-13-15----------13~-||
---------|----------------------||
---------|----------------------||
---------|----------------------||
---------|----------------------||


20.
|-15-13-------------13-12-------------|12-10------------10-8-----------|8-7-
|-------17-15-13\12-------15-13-12\10-|------13-12-10\8------12-10-8\6-|----
|-------------------------------------|--------------------------------|----
|-------------------------------------|--------------------------------|----
|-------------------------------------|--------------------------------|----
|-------------------------------------|--------------------------------|----


----------7-5---------|5-3---------3-1------------||
-10-8-6\5-----8-6-5\3-|----6-5-3\1-----5-3-1-0-1~-||
----------------------|---------------------------||
----------------------|---------------------------||
----------------------|---------------------------||
----------------------|---------------------------||



[Home] [Lessons] [Newsletter] [Articles] [Bio] [Affiliates] [Guitar Links] [Contact] [Advertise with Us]
Copyright ę 2003 by Domenick Ginex. All rights reserved.
Site owned and operated by Dexin Corporation